ISO-10303-21;
HEADER;
FILE_DESCRIPTION (( 'STEP AP203' ),
    '1' );
FILE_NAME ('RF5-31-C.STEP',
    '2023-12-04T15:17:39',
    ( '' ),
    ( '' ),
    'SwSTEP 2.0',
    'SolidWorks 2021',
    '' );
FILE_SCHEMA (( 'CONFIG_CONTROL_DESIGN' ));
ENDSEC;

DATA;
#1 = PERSON ( 'UNSPECIFIED', 'UNSPECIFIED', 'UNSPECIFIED', ('UNSPECIFIED'), ('UNSPECIFIED'), ('UNSPECIFIED') ) ;
#2 = EDGE_LOOP ( 'NONE', ( #111, #75, #177, #5 ) ) ;
#3 = ORIENTED_EDGE ( 'NONE', *, *, #145, .F. ) ;
#4 = PRODUCT_DEFINITION ( 'UNKNOWN', '', #135, #43 ) ;
#5 = ORIENTED_EDGE ( 'NONE', *, *, #133, .T. ) ;
#6 = CC_DESIGN_APPROVAL ( #59, ( #40 ) ) ;
#7 = CARTESIAN_POINT ( 'NONE',  ( 139.9999999999999716, -24.00000000000002132, 905.0000000000000000 ) ) ;
#8 = LINE ( 'NONE', #52, #70 ) ;
#9 = EDGE_CURVE ( 'NONE', #164, #183, #163, .T. ) ;
#10 = PERSON_AND_ORGANIZATION ( #1, #198 ) ;
#11 = FACE_OUTER_BOUND ( 'NONE', #22, .T. ) ;
#12 = PERSON_AND_ORGANIZATION ( #1, #198 ) ;
#13 = AXIS2_PLACEMENT_3D ( 'NONE', #161, #234, #17 ) ;
#14 = FACE_OUTER_BOUND ( 'NONE', #151, .T. ) ;
#15 = ORIENTED_EDGE ( 'NONE', *, *, #180, .T. ) ;
#16 = CARTESIAN_POINT ( 'NONE',  ( -140.0000000000000000, 23.99999999999993960, 0.000000000000000000 ) ) ;
#17 = DIRECTION ( 'NONE',  ( -1.000000000000000000, 7.434529182757745395E-17, 0.000000000000000000 ) ) ;
#18 = EDGE_CURVE ( 'NONE', #67, #164, #109, .T. ) ;
#19 = LOCAL_TIME ( 15, 17, 39.00000000000000000, #131 ) ;
#20 = MANIFOLD_SOLID_BREP ( 'Boss-Extrude1', #27 ) ;
#21 = ORIENTED_EDGE ( 'NONE', *, *, #9, .F. ) ;
#22 = EDGE_LOOP ( 'NONE', ( #173, #91, #89, #106 ) ) ;
#23 = ORIENTED_EDGE ( 'NONE', *, *, #202, .T. ) ;
#24 = VECTOR ( 'NONE', #132, 1000.000000000000000 ) ;
#25 = LINE ( 'NONE', #228, #126 ) ;
#26 = DATE_AND_TIME ( #190, #107 ) ;
#27 = CLOSED_SHELL ( 'NONE', ( #213, #229, #76, #167, #223, #185 ) ) ;
#28 = EDGE_CURVE ( 'NONE', #215, #183, #169, .T. ) ;
#29 = CARTESIAN_POINT ( 'NONE',  ( 140.0000000000000000, 23.99999999999999289, 905.0000000000000000 ) ) ;
#30 = APPROVAL_ROLE ( '' ) ;
#31 = CARTESIAN_POINT ( 'NONE',  ( -140.0000000000000000, 23.99999999999993960, 905.0000000000000000 ) ) ;
#32 = APPLICATION_CONTEXT ( 'configuration controlled 3d designs of mechanical parts and assemblies' ) ;
#33 = LINE ( 'NONE', #233, #221 ) ;
#34 = SHAPE_DEFINITION_REPRESENTATION ( #129, #105 ) ;
#35 = AXIS2_PLACEMENT_3D ( 'NONE', #29, #178, #36 ) ;
#36 = DIRECTION ( 'NONE',  ( -5.782411586589356653E-16, -1.000000000000000000, 0.000000000000000000 ) ) ;
#37 = DATE_TIME_ROLE ( 'creation_date' ) ;
#38 = EDGE_CURVE ( 'NONE', #183, #119, #92, .T. ) ;
#39 = PRODUCT ( 'RF5-31-C', 'RF5-31-C', '', ( #88 ) ) ;
#40 = SECURITY_CLASSIFICATION ( '', '', #155 ) ;
#41 = CARTESIAN_POINT ( 'NONE',  ( 0.000000000000000000, 0.000000000000000000, 0.000000000000000000 ) ) ;
#42 = CC_DESIGN_SECURITY_CLASSIFICATION ( #40, ( #135 ) ) ;
#43 = DESIGN_CONTEXT ( 'detailed design', #32, 'design' ) ;
#44 = ORIENTED_EDGE ( 'NONE', *, *, #124, .T. ) ;
#45 = LOCAL_TIME ( 15, 17, 39.00000000000000000, #219 ) ;
#46 = FACE_OUTER_BOUND ( 'NONE', #165, .T. ) ;
#47 = CC_DESIGN_DATE_AND_TIME_ASSIGNMENT ( #136, #208, ( #40 ) ) ;
#48 = APPROVAL_STATUS ( 'not_yet_approved' ) ;
#49 = CARTESIAN_POINT ( 'NONE',  ( 139.9999999999999716, -24.00000000000002132, 0.000000000000000000 ) ) ;
#50 = DIRECTION ( 'NONE',  ( 1.000000000000000000, 0.000000000000000000, -0.000000000000000000 ) ) ;
#51 = ORIENTED_EDGE ( 'NONE', *, *, #9, .T. ) ;
#52 = CARTESIAN_POINT ( 'NONE',  ( 140.0000000000000000, 23.99999999999999289, 905.0000000000000000 ) ) ;
#53 = CARTESIAN_POINT ( 'NONE',  ( 0.000000000000000000, 0.000000000000000000, 905.0000000000000000 ) ) ;
#54 = DATE_AND_TIME ( #140, #205 ) ;
#55 = LINE ( 'NONE', #236, #235 ) ;
#56 = DATE_AND_TIME ( #146, #45 ) ;
#57 = ORIENTED_EDGE ( 'NONE', *, *, #133, .F. ) ;
#58 = APPROVAL_PERSON_ORGANIZATION ( #102, #188, #87 ) ;
#59 = APPROVAL ( #48, 'UNSPECIFIED' ) ;
#60 = PLANE ( 'NONE',  #35 ) ;
#61 = PERSON_AND_ORGANIZATION_ROLE ( 'classification_officer' ) ;
#62 = DIRECTION ( 'NONE',  ( -0.000000000000000000, 0.000000000000000000, -1.000000000000000000 ) ) ;
#63 = FACE_OUTER_BOUND ( 'NONE', #90, .T. ) ;
#64 = APPROVAL_DATE_TIME ( #26, #59 ) ;
#65 = LINE ( 'NONE', #100, #166 ) ;
#66 = PERSON_AND_ORGANIZATION_ROLE ( 'creator' ) ;
#67 = VERTEX_POINT ( 'NONE', #191 ) ;
#68 = LINE ( 'NONE', #134, #24 ) ;
#69 = PERSON_AND_ORGANIZATION_ROLE ( 'design_owner' ) ;
#70 = VECTOR ( 'NONE', #192, 1000.000000000000000 ) ;
#71 = APPLICATION_PROTOCOL_DEFINITION ( 'international standard', 'config_control_design', 1994, #32 ) ;
#72 = PERSON_AND_ORGANIZATION ( #1, #198 ) ;
#73 = AXIS2_PLACEMENT_3D ( 'NONE', #53, #171, #117 ) ;
#74 = ORIENTED_EDGE ( 'NONE', *, *, #162, .F. ) ;
#75 = ORIENTED_EDGE ( 'NONE', *, *, #96, .T. ) ;
#76 = ADVANCED_FACE ( 'NONE', ( #63 ), #60, .F. ) ;
#77 = EDGE_LOOP ( 'NONE', ( #23, #150, #57, #125 ) ) ;
#78 = AXIS2_PLACEMENT_3D ( 'NONE', #41, #181, #196 ) ;
#79 = DIRECTION ( 'NONE',  ( 1.982541115402065356E-16, -1.000000000000000000, 0.000000000000000000 ) ) ;
#80 = DIRECTION ( 'NONE',  ( -0.000000000000000000, -0.000000000000000000, -1.000000000000000000 ) ) ;
#81 = PLANE ( 'NONE',  #13 ) ;
#82 = VECTOR ( 'NONE', #112, 1000.000000000000000 ) ;
#83 = CARTESIAN_POINT ( 'NONE',  ( 0.000000000000000000, 0.000000000000000000, 0.000000000000000000 ) ) ;
#84 = CARTESIAN_POINT ( 'NONE',  ( 140.0000000000000000, 23.99999999999999289, 0.000000000000000000 ) ) ;
#85 = ORIENTED_EDGE ( 'NONE', *, *, #28, .F. ) ;
#86 = CC_DESIGN_PERSON_AND_ORGANIZATION_ASSIGNMENT ( #12, #66, ( #135 ) ) ;
#87 = APPROVAL_ROLE ( '' ) ;
#88 = MECHANICAL_CONTEXT ( 'NONE', #121, 'mechanical' ) ;
#89 = ORIENTED_EDGE ( 'NONE', *, *, #96, .F. ) ;
#90 = EDGE_LOOP ( 'NONE', ( #44, #74, #197, #15 ) ) ;
#91 = ORIENTED_EDGE ( 'NONE', *, *, #180, .F. ) ;
#92 = LINE ( 'NONE', #189, #82 ) ;
#93 = AXIS2_PLACEMENT_3D ( 'NONE', #83, #174, #193 ) ;
#94 = DIRECTION ( 'NONE',  ( 1.000000000000000000, 1.982541115402065356E-16, 0.000000000000000000 ) ) ;
#95 = PLANE ( 'NONE',  #73 ) ;
#96 = EDGE_CURVE ( 'NONE', #215, #201, #207, .T. ) ;
#97 = PERSON_AND_ORGANIZATION ( #1, #198 ) ;
#98 = LINE ( 'NONE', #84, #110 ) ;
#99 = VECTOR ( 'NONE', #231, 1000.000000000000000 ) ;
#100 = CARTESIAN_POINT ( 'NONE',  ( -140.0000000000000000, 23.99999999999993960, 905.0000000000000000 ) ) ;
#101 = PRODUCT_RELATED_PRODUCT_CATEGORY ( 'detail', '', ( #39 ) ) ;
#102 = PERSON_AND_ORGANIZATION ( #1, #198 ) ;
#103 =( NAMED_UNIT ( * ) SI_UNIT ( $, .STERADIAN. ) SOLID_ANGLE_UNIT ( ) );
#104 = PERSON_AND_ORGANIZATION ( #1, #198 ) ;
#105 = ADVANCED_BREP_SHAPE_REPRESENTATION ( 'RF5-31-C', ( #20, #78 ), #152 ) ;
#106 = ORIENTED_EDGE ( 'NONE', *, *, #28, .T. ) ;
#107 = LOCAL_TIME ( 15, 17, 39.00000000000000000, #113 ) ;
#108 = ORIENTED_EDGE ( 'NONE', *, *, #38, .F. ) ;
#109 = LINE ( 'NONE', #194, #99 ) ;
#110 = VECTOR ( 'NONE', #216, 1000.000000000000000 ) ;
#111 = ORIENTED_EDGE ( 'NONE', *, *, #145, .T. ) ;
#112 = DIRECTION ( 'NONE',  ( 1.000000000000000000, -7.434529182757744162E-17, -0.000000000000000000 ) ) ;
#113 = COORDINATED_UNIVERSAL_TIME_OFFSET ( 0, 0, .AHEAD. ) ;
#114 = FACE_OUTER_BOUND ( 'NONE', #77, .T. ) ;
#115 = CARTESIAN_POINT ( 'NONE',  ( -140.0000000000000000, -24.00000000000000000, 905.0000000000000000 ) ) ;
#116 = CARTESIAN_POINT ( 'NONE',  ( 140.0000000000000000, 23.99999999999999289, 905.0000000000000000 ) ) ;
#117 = DIRECTION ( 'NONE',  ( -1.000000000000000000, 0.000000000000000000, 0.000000000000000000 ) ) ;
#118 = CC_DESIGN_APPROVAL ( #188, ( #135 ) ) ;
#119 = VERTEX_POINT ( 'NONE', #49 ) ;
#120 = APPROVAL_DATE_TIME ( #56, #203 ) ;
#121 = APPLICATION_CONTEXT ( 'configuration controlled 3d designs of mechanical parts and assemblies' ) ;
#122 =( NAMED_UNIT ( * ) PLANE_ANGLE_UNIT ( ) SI_UNIT ( $, .RADIAN. ) );
#123 = DIRECTION ( 'NONE',  ( 5.782411586589355667E-16, 1.000000000000000000, -0.000000000000000000 ) ) ;
#124 = EDGE_CURVE ( 'NONE', #119, #186, #25, .T. ) ;
#125 = ORIENTED_EDGE ( 'NONE', *, *, #162, .T. ) ;
#126 = VECTOR ( 'NONE', #227, 1000.000000000000000 ) ;
#127 = UNCERTAINTY_MEASURE_WITH_UNIT (LENGTH_MEASURE( 1.000000000000000082E-05 ), #217, 'distance_accuracy_value', 'NONE');
#128 = VERTEX_POINT ( 'NONE', #137 ) ;
#129 = PRODUCT_DEFINITION_SHAPE ( 'NONE', 'NONE',  #4 ) ;
#130 = CARTESIAN_POINT ( 'NONE',  ( -140.0000000000000000, -24.00000000000000000, 905.0000000000000000 ) ) ;
#131 = COORDINATED_UNIVERSAL_TIME_OFFSET ( 0, 0, .AHEAD. ) ;
#132 = DIRECTION ( 'NONE',  ( -1.000000000000000000, -1.982541115402065110E-16, 0.000000000000000000 ) ) ;
#133 = EDGE_CURVE ( 'NONE', #128, #67, #68, .T. ) ;
#134 = CARTESIAN_POINT ( 'NONE',  ( 140.0000000000000000, 23.99999999999999289, 905.0000000000000000 ) ) ;
#135 = PRODUCT_DEFINITION_FORMATION_WITH_SPECIFIED_SOURCE ( 'ANY', '', #39, .NOT_KNOWN. ) ;
#136 = DATE_AND_TIME ( #138, #19 ) ;
#137 = CARTESIAN_POINT ( 'NONE',  ( 140.0000000000000000, 23.99999999999999289, 905.0000000000000000 ) ) ;
#138 = CALENDAR_DATE ( 2023, 4, 12 ) ;
#139 = CARTESIAN_POINT ( 'NONE',  ( 139.9999999999999716, -24.00000000000002132, 905.0000000000000000 ) ) ;
#140 = CALENDAR_DATE ( 2023, 4, 12 ) ;
#141 = VECTOR ( 'NONE', #170, 1000.000000000000000 ) ;
#142 = ORIENTED_EDGE ( 'NONE', *, *, #18, .T. ) ;
#143 = APPROVAL_STATUS ( 'not_yet_approved' ) ;
#144 = APPROVAL_ROLE ( '' ) ;
#145 = EDGE_CURVE ( 'NONE', #67, #215, #65, .T. ) ;
#146 = CALENDAR_DATE ( 2023, 4, 12 ) ;
#147 = CC_DESIGN_PERSON_AND_ORGANIZATION_ASSIGNMENT ( #104, #69, ( #39 ) ) ;
#148 = APPROVAL_PERSON_ORGANIZATION ( #72, #203, #144 ) ;
#149 = CC_DESIGN_DATE_AND_TIME_ASSIGNMENT ( #54, #37, ( #4 ) ) ;
#150 = ORIENTED_EDGE ( 'NONE', *, *, #18, .F. ) ;
#151 = EDGE_LOOP ( 'NONE', ( #51, #85, #3, #142 ) ) ;
#152 =( GEOMETRIC_REPRESENTATION_CONTEXT ( 3 ) GLOBAL_UNCERTAINTY_ASSIGNED_CONTEXT ( ( #127 ) ) GLOBAL_UNIT_ASSIGNED_CONTEXT ( ( #217, #122, #103 ) ) REPRESENTATION_CONTEXT ( 'NONE', 'WORKASPACE' ) );
#153 = CC_DESIGN_PERSON_AND_ORGANIZATION_ASSIGNMENT ( #182, #220, ( #4 ) ) ;
#154 = PLANE ( 'NONE',  #93 ) ;
#155 = SECURITY_CLASSIFICATION_LEVEL ( 'unclassified' ) ;
#156 = PLANE ( 'NONE',  #158 ) ;
#157 = DIRECTION ( 'NONE',  ( -0.000000000000000000, -0.000000000000000000, -1.000000000000000000 ) ) ;
#158 = AXIS2_PLACEMENT_3D ( 'NONE', #31, #50, #62 ) ;
#159 = FACE_OUTER_BOUND ( 'NONE', #2, .T. ) ;
#160 = APPLICATION_PROTOCOL_DEFINITION ( 'international standard', 'config_control_design', 1994, #121 ) ;
#161 = CARTESIAN_POINT ( 'NONE',  ( 139.9999999999999716, -24.00000000000002132, 905.0000000000000000 ) ) ;
#162 = EDGE_CURVE ( 'NONE', #128, #186, #8, .T. ) ;
#163 = LINE ( 'NONE', #237, #175 ) ;
#164 = VERTEX_POINT ( 'NONE', #16 ) ;
#165 = EDGE_LOOP ( 'NONE', ( #21, #222, #204, #108 ) ) ;
#166 = VECTOR ( 'NONE', #209, 1000.000000000000000 ) ;
#167 = ADVANCED_FACE ( 'NONE', ( #114 ), #214, .F. ) ;
#168 = CC_DESIGN_PERSON_AND_ORGANIZATION_ASSIGNMENT ( #10, #226, ( #135 ) ) ;
#169 = LINE ( 'NONE', #130, #224 ) ;
#170 = DIRECTION ( 'NONE',  ( 1.000000000000000000, -7.434529182757744162E-17, -0.000000000000000000 ) ) ;
#171 = DIRECTION ( 'NONE',  ( -0.000000000000000000, 0.000000000000000000, -1.000000000000000000 ) ) ;
#172 = CALENDAR_DATE ( 2023, 4, 12 ) ;
#173 = ORIENTED_EDGE ( 'NONE', *, *, #38, .T. ) ;
#174 = DIRECTION ( 'NONE',  ( -0.000000000000000000, 0.000000000000000000, -1.000000000000000000 ) ) ;
#175 = VECTOR ( 'NONE', #184, 1000.000000000000000 ) ;
#176 = PERSON_AND_ORGANIZATION ( #1, #198 ) ;
#177 = ORIENTED_EDGE ( 'NONE', *, *, #230, .T. ) ;
#178 = DIRECTION ( 'NONE',  ( -1.000000000000000000, 5.782411586589356653E-16, 0.000000000000000000 ) ) ;
#179 = APPROVAL_STATUS ( 'not_yet_approved' ) ;
#180 = EDGE_CURVE ( 'NONE', #201, #119, #33, .T. ) ;
#181 = DIRECTION ( 'NONE',  ( 0.000000000000000000, 0.000000000000000000, 1.000000000000000000 ) ) ;
#182 = PERSON_AND_ORGANIZATION ( #1, #198 ) ;
#183 = VERTEX_POINT ( 'NONE', #225 ) ;
#184 = DIRECTION ( 'NONE',  ( 0.000000000000000000, -1.000000000000000000, 0.000000000000000000 ) ) ;
#185 = ADVANCED_FACE ( 'NONE', ( #46 ), #154, .T. ) ;
#186 = VERTEX_POINT ( 'NONE', #211 ) ;
#187 = CC_DESIGN_APPROVAL ( #203, ( #4 ) ) ;
#188 = APPROVAL ( #179, 'UNSPECIFIED' ) ;
#189 = CARTESIAN_POINT ( 'NONE',  ( 139.9999999999999716, -24.00000000000002132, 0.000000000000000000 ) ) ;
#190 = CALENDAR_DATE ( 2023, 4, 12 ) ;
#191 = CARTESIAN_POINT ( 'NONE',  ( -140.0000000000000000, 23.99999999999993960, 905.0000000000000000 ) ) ;
#192 = DIRECTION ( 'NONE',  ( -0.000000000000000000, -0.000000000000000000, -1.000000000000000000 ) ) ;
#193 = DIRECTION ( 'NONE',  ( -1.000000000000000000, 0.000000000000000000, 0.000000000000000000 ) ) ;
#194 = CARTESIAN_POINT ( 'NONE',  ( -140.0000000000000000, 23.99999999999993960, 905.0000000000000000 ) ) ;
#195 = LOCAL_TIME ( 15, 17, 39.00000000000000000, #212 ) ;
#196 = DIRECTION ( 'NONE',  ( 1.000000000000000000, 0.000000000000000000, 0.000000000000000000 ) ) ;
#197 = ORIENTED_EDGE ( 'NONE', *, *, #230, .F. ) ;
#198 = ORGANIZATION ( 'UNSPECIFIED', 'UNSPECIFIED', '' ) ;
#199 = COORDINATED_UNIVERSAL_TIME_OFFSET ( 0, 0, .AHEAD. ) ;
#200 = AXIS2_PLACEMENT_3D ( 'NONE', #116, #79, #94 ) ;
#201 = VERTEX_POINT ( 'NONE', #139 ) ;
#202 = EDGE_CURVE ( 'NONE', #186, #164, #98, .T. ) ;
#203 = APPROVAL ( #143, 'UNSPECIFIED' ) ;
#204 = ORIENTED_EDGE ( 'NONE', *, *, #124, .F. ) ;
#205 = LOCAL_TIME ( 15, 17, 39.00000000000000000, #199 ) ;
#206 = CC_DESIGN_PERSON_AND_ORGANIZATION_ASSIGNMENT ( #176, #61, ( #40 ) ) ;
#207 = LINE ( 'NONE', #7, #141 ) ;
#208 = DATE_TIME_ROLE ( 'classification_date' ) ;
#209 = DIRECTION ( 'NONE',  ( 0.000000000000000000, -1.000000000000000000, 0.000000000000000000 ) ) ;
#210 = DATE_AND_TIME ( #172, #195 ) ;
#211 = CARTESIAN_POINT ( 'NONE',  ( 140.0000000000000000, 23.99999999999999289, 0.000000000000000000 ) ) ;
#212 = COORDINATED_UNIVERSAL_TIME_OFFSET ( 0, 0, .AHEAD. ) ;
#213 = ADVANCED_FACE ( 'NONE', ( #14 ), #156, .F. ) ;
#214 = PLANE ( 'NONE',  #200 ) ;
#215 = VERTEX_POINT ( 'NONE', #115 ) ;
#216 = DIRECTION ( 'NONE',  ( -1.000000000000000000, -1.982541115402065110E-16, 0.000000000000000000 ) ) ;
#217 =( LENGTH_UNIT ( ) NAMED_UNIT ( * ) SI_UNIT ( .MILLI., .METRE. ) );
#218 = APPROVAL_PERSON_ORGANIZATION ( #97, #59, #30 ) ;
#219 = COORDINATED_UNIVERSAL_TIME_OFFSET ( 0, 0, .AHEAD. ) ;
#220 = PERSON_AND_ORGANIZATION_ROLE ( 'creator' ) ;
#221 = VECTOR ( 'NONE', #80, 1000.000000000000000 ) ;
#222 = ORIENTED_EDGE ( 'NONE', *, *, #202, .F. ) ;
#223 = ADVANCED_FACE ( 'NONE', ( #159 ), #95, .F. ) ;
#224 = VECTOR ( 'NONE', #157, 1000.000000000000000 ) ;
#225 = CARTESIAN_POINT ( 'NONE',  ( -140.0000000000000000, -24.00000000000000000, 0.000000000000000000 ) ) ;
#226 = PERSON_AND_ORGANIZATION_ROLE ( 'design_supplier' ) ;
#227 = DIRECTION ( 'NONE',  ( 5.782411586589355667E-16, 1.000000000000000000, -0.000000000000000000 ) ) ;
#228 = CARTESIAN_POINT ( 'NONE',  ( 140.0000000000000000, 23.99999999999999289, 0.000000000000000000 ) ) ;
#229 = ADVANCED_FACE ( 'NONE', ( #11 ), #81, .F. ) ;
#230 = EDGE_CURVE ( 'NONE', #201, #128, #55, .T. ) ;
#231 = DIRECTION ( 'NONE',  ( -0.000000000000000000, -0.000000000000000000, -1.000000000000000000 ) ) ;
#232 = APPROVAL_DATE_TIME ( #210, #188 ) ;
#233 = CARTESIAN_POINT ( 'NONE',  ( 139.9999999999999716, -24.00000000000002132, 905.0000000000000000 ) ) ;
#234 = DIRECTION ( 'NONE',  ( 7.434529182757745395E-17, 1.000000000000000000, -0.000000000000000000 ) ) ;
#235 = VECTOR ( 'NONE', #123, 1000.000000000000000 ) ;
#236 = CARTESIAN_POINT ( 'NONE',  ( 140.0000000000000000, 23.99999999999999289, 905.0000000000000000 ) ) ;
#237 = CARTESIAN_POINT ( 'NONE',  ( -140.0000000000000000, 23.99999999999993960, 0.000000000000000000 ) ) ;
ENDSEC;
END-ISO-10303-21;
