ISO-10303-21;
HEADER;
FILE_DESCRIPTION (( 'STEP AP203' ),
    '1' );
FILE_NAME ('RF3 5-WMR.STEP',
    '2023-12-04T15:23:22',
    ( '' ),
    ( '' ),
    'SwSTEP 2.0',
    'SolidWorks 2021',
    '' );
FILE_SCHEMA (( 'CONFIG_CONTROL_DESIGN' ));
ENDSEC;

DATA;
#1 = CARTESIAN_POINT ( 'NONE',  ( 0.000000000000000000, 0.000000000000000000, 0.000000000000000000 ) ) ;
#2 = LINE ( 'NONE', #20, #157 ) ;
#3 = ORIENTED_EDGE ( 'NONE', *, *, #60, .F. ) ;
#4 = AXIS2_PLACEMENT_3D ( 'NONE', #12, #232, #96 ) ;
#5 = VERTEX_POINT ( 'NONE', #71 ) ;
#6 = EDGE_LOOP ( 'NONE', ( #123, #67, #110, #228 ) ) ;
#7 = APPROVAL ( #102, 'UNSPECIFIED' ) ;
#8 = DIRECTION ( 'NONE',  ( 1.000000000000000000, 0.000000000000000000, -0.000000000000000000 ) ) ;
#9 = ADVANCED_FACE ( 'NONE', ( #143 ), #128, .F. ) ;
#10 = CARTESIAN_POINT ( 'NONE',  ( 0.000000000000000000, 0.000000000000000000, 905.0000000000000000 ) ) ;
#11 = VECTOR ( 'NONE', #169, 1000.000000000000000 ) ;
#12 = CARTESIAN_POINT ( 'NONE',  ( -515.0000000000000000, 0.000000000000000000, 905.0000000000000000 ) ) ;
#13 = VECTOR ( 'NONE', #41, 1000.000000000000000 ) ;
#14 = CARTESIAN_POINT ( 'NONE',  ( 0.000000000000000000, 0.000000000000000000, 0.000000000000000000 ) ) ;
#15 = AXIS2_PLACEMENT_3D ( 'NONE', #10, #39, #164 ) ;
#16 = LINE ( 'NONE', #81, #227 ) ;
#17 = APPROVAL_ROLE ( '' ) ;
#18 = APPROVAL ( #59, 'UNSPECIFIED' ) ;
#19 = LINE ( 'NONE', #101, #11 ) ;
#20 = CARTESIAN_POINT ( 'NONE',  ( 0.000000000000000000, 4.999999999999997335, 0.000000000000000000 ) ) ;
#21 = DIRECTION ( 'NONE',  ( -0.08320561790177387340, -0.9965324004514776179, 0.000000000000000000 ) ) ;
#22 = ADVANCED_FACE ( 'NONE', ( #197 ), #178, .F. ) ;
#23 = AXIS2_PLACEMENT_3D ( 'NONE', #231, #194, #94 ) ;
#24 = ADVANCED_FACE ( 'NONE', ( #180 ), #209, .F. ) ;
#25 =( NAMED_UNIT ( * ) PLANE_ANGLE_UNIT ( ) SI_UNIT ( $, .RADIAN. ) );
#26 = APPROVAL_DATE_TIME ( #166, #7 ) ;
#27 = CC_DESIGN_APPROVAL ( #7, ( #56 ) ) ;
#28 = ORIENTED_EDGE ( 'NONE', *, *, #211, .T. ) ;
#29 = UNCERTAINTY_MEASURE_WITH_UNIT (LENGTH_MEASURE( 1.000000000000000082E-05 ), #190, 'distance_accuracy_value', 'NONE');
#30 = ORIENTED_EDGE ( 'NONE', *, *, #70, .F. ) ;
#31 = ORGANIZATION ( 'UNSPECIFIED', 'UNSPECIFIED', '' ) ;
#32 = ORIENTED_EDGE ( 'NONE', *, *, #225, .T. ) ;
#33 = ADVANCED_FACE ( 'NONE', ( #215 ), #113, .T. ) ;
#34 = CALENDAR_DATE ( 2023, 4, 12 ) ;
#35 = LOCAL_TIME ( 15, 23, 22.00000000000000000, #92 ) ;
#36 = EDGE_CURVE ( 'NONE', #5, #88, #233, .T. ) ;
#37 = CARTESIAN_POINT ( 'NONE',  ( -515.0000000000000000, 0.000000000000000000, 0.000000000000000000 ) ) ;
#38 = FACE_OUTER_BOUND ( 'NONE', #141, .T. ) ;
#39 = DIRECTION ( 'NONE',  ( -1.000000000000000000, 0.000000000000000000, 0.000000000000000000 ) ) ;
#40 = CARTESIAN_POINT ( 'NONE',  ( 0.000000000000000000, 0.000000000000000000, 905.0000000000000000 ) ) ;
#41 = DIRECTION ( 'NONE',  ( 0.000000000000000000, -1.000000000000000000, 0.000000000000000000 ) ) ;
#42 = PRODUCT ( 'RF3 5-WMR', 'RF3 5-WMR', '', ( #122 ) ) ;
#43 = LOCAL_TIME ( 15, 23, 22.00000000000000000, #151 ) ;
#44 = PERSON_AND_ORGANIZATION_ROLE ( 'design_owner' ) ;
#45 = CARTESIAN_POINT ( 'NONE',  ( -515.0000000000000000, 48.00000000000000000, 0.000000000000000000 ) ) ;
#46 = APPLICATION_CONTEXT ( 'configuration controlled 3d designs of mechanical parts and assemblies' ) ;
#47 = DIRECTION ( 'NONE',  ( 1.000000000000000000, 0.000000000000000000, 0.000000000000000000 ) ) ;
#48 = VECTOR ( 'NONE', #132, 1000.000000000000000 ) ;
#49 = PRODUCT_DEFINITION_SHAPE ( 'NONE', 'NONE',  #56 ) ;
#50 = CC_DESIGN_PERSON_AND_ORGANIZATION_ASSIGNMENT ( #64, #137, ( #205 ) ) ;
#51 = EDGE_LOOP ( 'NONE', ( #30, #208, #174, #139 ) ) ;
#52 = EDGE_LOOP ( 'NONE', ( #32, #224, #91, #142 ) ) ;
#53 = CC_DESIGN_APPROVAL ( #138, ( #58 ) ) ;
#54 = CARTESIAN_POINT ( 'NONE',  ( 0.000000000000000000, 0.000000000000000000, 0.000000000000000000 ) ) ;
#55 = APPROVAL_ROLE ( '' ) ;
#56 = PRODUCT_DEFINITION ( 'UNKNOWN', '', #205, #86 ) ;
#57 = CARTESIAN_POINT ( 'NONE',  ( -515.0000000000000000, 0.000000000000000000, 905.0000000000000000 ) ) ;
#58 = SECURITY_CLASSIFICATION ( '', '', #153 ) ;
#59 = APPROVAL_STATUS ( 'not_yet_approved' ) ;
#60 = EDGE_CURVE ( 'NONE', #107, #5, #212, .T. ) ;
#61 = CARTESIAN_POINT ( 'NONE',  ( -515.0000000000000000, 48.00000000000000000, 905.0000000000000000 ) ) ;
#62 = LINE ( 'NONE', #80, #177 ) ;
#63 = AXIS2_PLACEMENT_3D ( 'NONE', #204, #189, #47 ) ;
#64 = PERSON_AND_ORGANIZATION ( #219, #31 ) ;
#65 = DATE_AND_TIME ( #199, #144 ) ;
#66 = CC_DESIGN_PERSON_AND_ORGANIZATION_ASSIGNMENT ( #135, #44, ( #42 ) ) ;
#67 = ORIENTED_EDGE ( 'NONE', *, *, #192, .F. ) ;
#68 = ORIENTED_EDGE ( 'NONE', *, *, #230, .F. ) ;
#69 = CALENDAR_DATE ( 2023, 4, 12 ) ;
#70 = EDGE_CURVE ( 'NONE', #156, #88, #163, .T. ) ;
#71 = CARTESIAN_POINT ( 'NONE',  ( 0.000000000000000000, 0.000000000000000000, 905.0000000000000000 ) ) ;
#72 = VECTOR ( 'NONE', #147, 1000.000000000000000 ) ;
#73 = CC_DESIGN_PERSON_AND_ORGANIZATION_ASSIGNMENT ( #117, #85, ( #56 ) ) ;
#74 = CC_DESIGN_APPROVAL ( #18, ( #205 ) ) ;
#75 = DIRECTION ( 'NONE',  ( 1.000000000000000000, 0.000000000000000000, 0.000000000000000000 ) ) ;
#76 = LINE ( 'NONE', #61, #13 ) ;
#77 = APPROVAL_DATE_TIME ( #161, #138 ) ;
#78 = CARTESIAN_POINT ( 'NONE',  ( 0.000000000000000000, 0.000000000000000000, 905.0000000000000000 ) ) ;
#79 =( GEOMETRIC_REPRESENTATION_CONTEXT ( 3 ) GLOBAL_UNCERTAINTY_ASSIGNED_CONTEXT ( ( #29 ) ) GLOBAL_UNIT_ASSIGNED_CONTEXT ( ( #190, #25, #82 ) ) REPRESENTATION_CONTEXT ( 'NONE', 'WORKASPACE' ) );
#80 = CARTESIAN_POINT ( 'NONE',  ( 0.000000000000000000, 4.999999999999997335, 905.0000000000000000 ) ) ;
#81 = CARTESIAN_POINT ( 'NONE',  ( -515.0000000000000000, 0.000000000000000000, 905.0000000000000000 ) ) ;
#82 =( NAMED_UNIT ( * ) SI_UNIT ( $, .STERADIAN. ) SOLID_ANGLE_UNIT ( ) );
#83 = PERSON_AND_ORGANIZATION ( #219, #31 ) ;
#84 = APPROVAL_DATE_TIME ( #155, #18 ) ;
#85 = PERSON_AND_ORGANIZATION_ROLE ( 'creator' ) ;
#86 = DESIGN_CONTEXT ( 'detailed design', #223, 'design' ) ;
#87 = ORIENTED_EDGE ( 'NONE', *, *, #136, .T. ) ;
#88 = VERTEX_POINT ( 'NONE', #54 ) ;
#89 = EDGE_CURVE ( 'NONE', #193, #156, #179, .T. ) ;
#90 = EDGE_LOOP ( 'NONE', ( #28, #226, #68, #108 ) ) ;
#91 = ORIENTED_EDGE ( 'NONE', *, *, #185, .F. ) ;
#92 = COORDINATED_UNIVERSAL_TIME_OFFSET ( 0, 0, .AHEAD. ) ;
#93 = ORIENTED_EDGE ( 'NONE', *, *, #60, .T. ) ;
#94 = DIRECTION ( 'NONE',  ( 1.000000000000000000, 0.000000000000000000, -0.000000000000000000 ) ) ;
#95 = VECTOR ( 'NONE', #75, 1000.000000000000000 ) ;
#96 = DIRECTION ( 'NONE',  ( 0.000000000000000000, -0.000000000000000000, 1.000000000000000000 ) ) ;
#97 = DIRECTION ( 'NONE',  ( -0.000000000000000000, -0.000000000000000000, -1.000000000000000000 ) ) ;
#98 = CARTESIAN_POINT ( 'NONE',  ( -515.0000000000000000, 0.000000000000000000, 0.000000000000000000 ) ) ;
#99 = COORDINATED_UNIVERSAL_TIME_OFFSET ( 0, 0, .AHEAD. ) ;
#100 = VECTOR ( 'NONE', #222, 1000.000000000000000 ) ;
#101 = CARTESIAN_POINT ( 'NONE',  ( -515.0000000000000000, 48.00000000000000000, 905.0000000000000000 ) ) ;
#102 = APPROVAL_STATUS ( 'not_yet_approved' ) ;
#103 = PERSON_AND_ORGANIZATION_ROLE ( 'design_supplier' ) ;
#104 = MANIFOLD_SOLID_BREP ( 'Boss-Extrude1', #130 ) ;
#105 = VECTOR ( 'NONE', #165, 1000.000000000000000 ) ;
#106 = DATE_TIME_ROLE ( 'classification_date' ) ;
#107 = VERTEX_POINT ( 'NONE', #196 ) ;
#108 = ORIENTED_EDGE ( 'NONE', *, *, #170, .T. ) ;
#109 = PERSON_AND_ORGANIZATION_ROLE ( 'classification_officer' ) ;
#110 = ORIENTED_EDGE ( 'NONE', *, *, #136, .F. ) ;
#111 = ORIENTED_EDGE ( 'NONE', *, *, #70, .T. ) ;
#112 = PERSON_AND_ORGANIZATION ( #219, #31 ) ;
#113 = PLANE ( 'NONE',  #23 ) ;
#114 = DIRECTION ( 'NONE',  ( 0.000000000000000000, 0.000000000000000000, 1.000000000000000000 ) ) ;
#115 = ADVANCED_FACE ( 'NONE', ( #38 ), #181, .F. ) ;
#116 = LINE ( 'NONE', #40, #48 ) ;
#117 = PERSON_AND_ORGANIZATION ( #219, #31 ) ;
#118 = LINE ( 'NONE', #186, #105 ) ;
#119 = APPLICATION_PROTOCOL_DEFINITION ( 'international standard', 'config_control_design', 1994, #223 ) ;
#120 = CALENDAR_DATE ( 2023, 4, 12 ) ;
#121 = ADVANCED_BREP_SHAPE_REPRESENTATION ( 'RF3 5-WMR', ( #104, #63 ), #79 ) ;
#122 = MECHANICAL_CONTEXT ( 'NONE', #46, 'mechanical' ) ;
#123 = ORIENTED_EDGE ( 'NONE', *, *, #89, .T. ) ;
#124 = DATE_AND_TIME ( #69, #35 ) ;
#125 = ORIENTED_EDGE ( 'NONE', *, *, #36, .F. ) ;
#126 = LOCAL_TIME ( 15, 23, 22.00000000000000000, #146 ) ;
#127 = AXIS2_PLACEMENT_3D ( 'NONE', #14, #114, #8 ) ;
#128 = PLANE ( 'NONE',  #154 ) ;
#129 = DIRECTION ( 'NONE',  ( -0.000000000000000000, 0.000000000000000000, -1.000000000000000000 ) ) ;
#130 = CLOSED_SHELL ( 'NONE', ( #115, #24, #150, #9, #33, #22 ) ) ;
#131 = DIRECTION ( 'NONE',  ( 0.000000000000000000, -1.000000000000000000, 0.000000000000000000 ) ) ;
#132 = DIRECTION ( 'NONE',  ( 0.000000000000000000, 1.000000000000000000, 0.000000000000000000 ) ) ;
#133 = APPROVAL_ROLE ( '' ) ;
#134 = PLANE ( 'NONE',  #160 ) ;
#135 = PERSON_AND_ORGANIZATION ( #219, #31 ) ;
#136 = EDGE_CURVE ( 'NONE', #159, #107, #76, .T. ) ;
#137 = PERSON_AND_ORGANIZATION_ROLE ( 'creator' ) ;
#138 = APPROVAL ( #173, 'UNSPECIFIED' ) ;
#139 = ORIENTED_EDGE ( 'NONE', *, *, #225, .F. ) ;
#140 = EDGE_LOOP ( 'NONE', ( #93, #207, #158, #87 ) ) ;
#141 = EDGE_LOOP ( 'NONE', ( #111, #125, #3, #175 ) ) ;
#142 = ORIENTED_EDGE ( 'NONE', *, *, #36, .T. ) ;
#143 = FACE_OUTER_BOUND ( 'NONE', #6, .T. ) ;
#144 = LOCAL_TIME ( 15, 23, 22.00000000000000000, #218 ) ;
#145 = CARTESIAN_POINT ( 'NONE',  ( -515.0000000000000000, 48.00000000000000000, 0.000000000000000000 ) ) ;
#146 = COORDINATED_UNIVERSAL_TIME_OFFSET ( 0, 0, .AHEAD. ) ;
#147 = DIRECTION ( 'NONE',  ( 1.000000000000000000, 0.000000000000000000, 0.000000000000000000 ) ) ;
#148 = CC_DESIGN_DATE_AND_TIME_ASSIGNMENT ( #65, #237, ( #56 ) ) ;
#149 = CARTESIAN_POINT ( 'NONE',  ( 0.000000000000000000, 4.999999999999997335, 905.0000000000000000 ) ) ;
#150 = ADVANCED_FACE ( 'NONE', ( #198 ), #134, .F. ) ;
#151 = COORDINATED_UNIVERSAL_TIME_OFFSET ( 0, 0, .AHEAD. ) ;
#152 = APPROVAL_PERSON_ORGANIZATION ( #184, #7, #17 ) ;
#153 = SECURITY_CLASSIFICATION_LEVEL ( 'unclassified' ) ;
#154 = AXIS2_PLACEMENT_3D ( 'NONE', #210, #162, #129 ) ;
#155 = DATE_AND_TIME ( #120, #43 ) ;
#156 = VERTEX_POINT ( 'NONE', #98 ) ;
#157 = VECTOR ( 'NONE', #172, 1000.000000000000114 ) ;
#158 = ORIENTED_EDGE ( 'NONE', *, *, #230, .T. ) ;
#159 = VERTEX_POINT ( 'NONE', #183 ) ;
#160 = AXIS2_PLACEMENT_3D ( 'NONE', #149, #21, #217 ) ;
#161 = DATE_AND_TIME ( #34, #126 ) ;
#162 = DIRECTION ( 'NONE',  ( 1.000000000000000000, 0.000000000000000000, -0.000000000000000000 ) ) ;
#163 = LINE ( 'NONE', #37, #95 ) ;
#164 = DIRECTION ( 'NONE',  ( 0.000000000000000000, 0.000000000000000000, 1.000000000000000000 ) ) ;
#165 = DIRECTION ( 'NONE',  ( -0.000000000000000000, -0.000000000000000000, -1.000000000000000000 ) ) ;
#166 = DATE_AND_TIME ( #171, #167 ) ;
#167 = LOCAL_TIME ( 15, 23, 22.00000000000000000, #99 ) ;
#168 = VECTOR ( 'NONE', #131, 1000.000000000000000 ) ;
#169 = DIRECTION ( 'NONE',  ( -0.000000000000000000, -0.000000000000000000, -1.000000000000000000 ) ) ;
#170 = EDGE_CURVE ( 'NONE', #206, #191, #118, .T. ) ;
#171 = CALENDAR_DATE ( 2023, 4, 12 ) ;
#172 = DIRECTION ( 'NONE',  ( -0.9965324004514775069, 0.08320561790177385952, 0.000000000000000000 ) ) ;
#173 = APPROVAL_STATUS ( 'not_yet_approved' ) ;
#174 = ORIENTED_EDGE ( 'NONE', *, *, #211, .F. ) ;
#175 = ORIENTED_EDGE ( 'NONE', *, *, #192, .T. ) ;
#176 = EDGE_CURVE ( 'NONE', #159, #193, #19, .T. ) ;
#177 = VECTOR ( 'NONE', #220, 1000.000000000000114 ) ;
#178 = PLANE ( 'NONE',  #127 ) ;
#179 = LINE ( 'NONE', #145, #168 ) ;
#180 = FACE_OUTER_BOUND ( 'NONE', #52, .T. ) ;
#181 = PLANE ( 'NONE',  #4 ) ;
#182 = CC_DESIGN_SECURITY_CLASSIFICATION ( #58, ( #205 ) ) ;
#183 = CARTESIAN_POINT ( 'NONE',  ( -515.0000000000000000, 48.00000000000000000, 905.0000000000000000 ) ) ;
#184 = PERSON_AND_ORGANIZATION ( #219, #31 ) ;
#185 = EDGE_CURVE ( 'NONE', #5, #206, #116, .T. ) ;
#186 = CARTESIAN_POINT ( 'NONE',  ( 0.000000000000000000, 4.999999999999997335, 905.0000000000000000 ) ) ;
#187 = APPROVAL_PERSON_ORGANIZATION ( #83, #18, #133 ) ;
#188 = DIRECTION ( 'NONE',  ( -0.000000000000000000, -0.000000000000000000, -1.000000000000000000 ) ) ;
#189 = DIRECTION ( 'NONE',  ( 0.000000000000000000, 0.000000000000000000, 1.000000000000000000 ) ) ;
#190 =( LENGTH_UNIT ( ) NAMED_UNIT ( * ) SI_UNIT ( .MILLI., .METRE. ) );
#191 = VERTEX_POINT ( 'NONE', #236 ) ;
#192 = EDGE_CURVE ( 'NONE', #107, #156, #16, .T. ) ;
#193 = VERTEX_POINT ( 'NONE', #45 ) ;
#194 = DIRECTION ( 'NONE',  ( 0.000000000000000000, 0.000000000000000000, 1.000000000000000000 ) ) ;
#195 = PRODUCT_RELATED_PRODUCT_CATEGORY ( 'detail', '', ( #42 ) ) ;
#196 = CARTESIAN_POINT ( 'NONE',  ( -515.0000000000000000, 0.000000000000000000, 905.0000000000000000 ) ) ;
#197 = FACE_OUTER_BOUND ( 'NONE', #51, .T. ) ;
#198 = FACE_OUTER_BOUND ( 'NONE', #90, .T. ) ;
#199 = CALENDAR_DATE ( 2023, 4, 12 ) ;
#200 = CARTESIAN_POINT ( 'NONE',  ( 0.000000000000000000, 4.999999999999997335, 905.0000000000000000 ) ) ;
#201 = APPROVAL_PERSON_ORGANIZATION ( #112, #138, #55 ) ;
#202 = PERSON_AND_ORGANIZATION ( #219, #31 ) ;
#203 = LINE ( 'NONE', #1, #100 ) ;
#204 = CARTESIAN_POINT ( 'NONE',  ( 0.000000000000000000, 0.000000000000000000, 0.000000000000000000 ) ) ;
#205 = PRODUCT_DEFINITION_FORMATION_WITH_SPECIFIED_SOURCE ( 'ANY', '', #42, .NOT_KNOWN. ) ;
#206 = VERTEX_POINT ( 'NONE', #200 ) ;
#207 = ORIENTED_EDGE ( 'NONE', *, *, #185, .T. ) ;
#208 = ORIENTED_EDGE ( 'NONE', *, *, #89, .F. ) ;
#209 = PLANE ( 'NONE',  #15 ) ;
#210 = CARTESIAN_POINT ( 'NONE',  ( -515.0000000000000000, 48.00000000000000000, 905.0000000000000000 ) ) ;
#211 = EDGE_CURVE ( 'NONE', #191, #193, #2, .T. ) ;
#212 = LINE ( 'NONE', #57, #72 ) ;
#213 = VECTOR ( 'NONE', #97, 1000.000000000000000 ) ;
#214 = CC_DESIGN_PERSON_AND_ORGANIZATION_ASSIGNMENT ( #221, #109, ( #58 ) ) ;
#215 = FACE_OUTER_BOUND ( 'NONE', #140, .T. ) ;
#216 = SHAPE_DEFINITION_REPRESENTATION ( #49, #121 ) ;
#217 = DIRECTION ( 'NONE',  ( 0.9965324004514775069, -0.08320561790177385952, 0.000000000000000000 ) ) ;
#218 = COORDINATED_UNIVERSAL_TIME_OFFSET ( 0, 0, .AHEAD. ) ;
#219 = PERSON ( 'UNSPECIFIED', 'UNSPECIFIED', 'UNSPECIFIED', ('UNSPECIFIED'), ('UNSPECIFIED'), ('UNSPECIFIED') ) ;
#220 = DIRECTION ( 'NONE',  ( -0.9965324004514775069, 0.08320561790177385952, 0.000000000000000000 ) ) ;
#221 = PERSON_AND_ORGANIZATION ( #219, #31 ) ;
#222 = DIRECTION ( 'NONE',  ( 0.000000000000000000, 1.000000000000000000, 0.000000000000000000 ) ) ;
#223 = APPLICATION_CONTEXT ( 'configuration controlled 3d designs of mechanical parts and assemblies' ) ;
#224 = ORIENTED_EDGE ( 'NONE', *, *, #170, .F. ) ;
#225 = EDGE_CURVE ( 'NONE', #88, #191, #203, .T. ) ;
#226 = ORIENTED_EDGE ( 'NONE', *, *, #176, .F. ) ;
#227 = VECTOR ( 'NONE', #188, 1000.000000000000000 ) ;
#228 = ORIENTED_EDGE ( 'NONE', *, *, #176, .T. ) ;
#229 = CC_DESIGN_DATE_AND_TIME_ASSIGNMENT ( #124, #106, ( #58 ) ) ;
#230 = EDGE_CURVE ( 'NONE', #206, #159, #62, .T. ) ;
#231 = CARTESIAN_POINT ( 'NONE',  ( 0.000000000000000000, 0.000000000000000000, 905.0000000000000000 ) ) ;
#232 = DIRECTION ( 'NONE',  ( 0.000000000000000000, 1.000000000000000000, 0.000000000000000000 ) ) ;
#233 = LINE ( 'NONE', #78, #213 ) ;
#234 = APPLICATION_PROTOCOL_DEFINITION ( 'international standard', 'config_control_design', 1994, #46 ) ;
#235 = CC_DESIGN_PERSON_AND_ORGANIZATION_ASSIGNMENT ( #202, #103, ( #205 ) ) ;
#236 = CARTESIAN_POINT ( 'NONE',  ( 0.000000000000000000, 4.999999999999997335, 0.000000000000000000 ) ) ;
#237 = DATE_TIME_ROLE ( 'creation_date' ) ;
ENDSEC;
END-ISO-10303-21;
